  0
SECTION
  2
HEADER
  9
$ACADVER
  1
AC1015
  9
$ACADMAINTVER
 70
    20
  9
$DWGCODEPAGE
  3
ANSI_1254
  9
$INSBASE
 10
0.0
 20
0.0
 30
0.0
  9
$EXTMIN
 10
-1.035533900000005
 20
-178.29189802
 30
0.0
  9
$EXTMAX
 10
539.98846239
 20
482.72755905
 30
0.0
  9
$LIMMIN
 10
0.0
 20
0.0
  9
$LIMMAX
 10
12.0
 20
9.0
  9
$ORTHOMODE
 70
     0
  9
$REGENMODE
 70
     1
  9
$FILLMODE
 70
     1
  9
$QTEXTMODE
 70
     0
  9
$MIRRTEXT
 70
     0
  9
$LTSCALE
 40
1.0
  9
$ATTMODE
 70
     1
  9
$TEXTSIZE
 40
0.2
  9
$TRACEWID
 40
0.05
  9
$TEXTSTYLE
  7
Standard
  9
$CLAYER
  8
0
  9
$CELTYPE
  6
Continuous
  9
$CECOLOR
 62
   256
  9
$CELTSCALE
 40
1.0
  9
$DISPSILH
 70
     0
  9
$DIMSCALE
 40
1.0
  9
$DIMASZ
 40
0.18
  9
$DIMEXO
 40
0.0625
  9
$DIMDLI
 40
0.38
  9
$DIMRND
 40
0.0
  9
$DIMDLE
 40
0.0
  9
$DIMEXE
 40
0.18
  9
$DIMTP
 40
0.0
  9
$DIMTM
 40
0.0
  9
$DIMTXT
 40
0.18
  9
$DIMCEN
 40
0.09
  9
$DIMTSZ
 40
0.0
  9
$DIMTOL
 70
     0
  9
$DIMLIM
 70
     0
  9
$DIMTIH
 70
     1
  9
$DIMTOH
 70
     1
  9
$DIMSE1
 70
     0
  9
$DIMSE2
 70
     0
  9
$DIMTAD
 70
     0
  9
$DIMZIN
 70
     0
  9
$DIMBLK
  1

  9
$DIMASO
 70
     1
  9
$DIMSHO
 70
     1
  9
$DIMPOST
  1

  9
$DIMAPOST
  1

  9
$DIMALT
 70
     0
  9
$DIMALTD
 70
     2
  9
$DIMALTF
 40
25.4
  9
$DIMLFAC
 40
1.0
  9
$DIMTOFL
 70
     0
  9
$DIMTVP
 40
0.0
  9
$DIMTIX
 70
     0
  9
$DIMSOXD
 70
     0
  9
$DIMSAH
 70
     0
  9
$DIMBLK1
  1

  9
$DIMBLK2
  1

  9
$DIMSTYLE
  2
Standard
  9
$DIMCLRD
 70
     0
  9
$DIMCLRE
 70
     0
  9
$DIMCLRT
 70
     0
  9
$DIMTFAC
 40
1.0
  9
$DIMGAP
 40
0.09
  9
$DIMJUST
 70
     0
  9
$DIMSD1
 70
     0
  9
$DIMSD2
 70
     0
  9
$DIMTOLJ
 70
     1
  9
$DIMTZIN
 70
     0
  9
$DIMALTZ
 70
     0
  9
$DIMALTTZ
 70
     0
  9
$DIMUPT
 70
     0
  9
$DIMDEC
 70
     4
  9
$DIMTDEC
 70
     4
  9
$DIMALTU
 70
     2
  9
$DIMALTTD
 70
     2
  9
$DIMTXSTY
  7
Standard
  9
$DIMAUNIT
 70
     0
  9
$DIMADEC
 70
     0
  9
$DIMALTRND
 40
0.0
  9
$DIMAZIN
 70
     0
  9
$DIMDSEP
 70
    46
  9
$DIMATFIT
 70
     3
  9
$DIMFRAC
 70
     0
  9
$DIMLDRBLK
  1

  9
$DIMLUNIT
 70
     2
  9
$DIMLWD
 70
    -2
  9
$DIMLWE
 70
    -2
  9
$DIMTMOVE
 70
     0
  9
$LUNITS
 70
     2
  9
$LUPREC
 70
     4
  9
$SKETCHINC
 40
0.1
  9
$FILLETRAD
 40
0.0
  9
$AUNITS
 70
     0
  9
$AUPREC
 70
     0
  9
$MENU
  1
.
  9
$ELEVATION
 40
0.0
  9
$PELEVATION
 40
0.0
  9
$THICKNESS
 40
0.0
  9
$LIMCHECK
 70
     0
  9
$CHAMFERA
 40
0.0
  9
$CHAMFERB
 40
0.0
  9
$CHAMFERC
 40
0.0
  9
$CHAMFERD
 40
0.0
  9
$SKPOLY
 70
     0
  9
$TDCREATE
 40
2453995.803351227
  9
$TDUCREATE
 40
2453995.678351227
  9
$TDUPDATE
 40
2453995.804671945
  9
$TDUUPDATE
 40
2453995.679671944
  9
$TDINDWG
 40
0.0012518056
  9
$TDUSRTIMER
 40
0.0012516204
  9
$USRTIMER
 70
     1
  9
$ANGBASE
 50
0.0
  9
$ANGDIR
 70
     0
  9
$PDMODE
 70
     0
  9
$PDSIZE
 40
0.0
  9
$PLINEWID
 40
0.0
  9
$SPLFRAME
 70
     0
  9
$SPLINETYPE
 70
     6
  9
$SPLINESEGS
 70
     8
  9
$HANDSEED
  5
3C2
  9
$SURFTAB1
 70
     6
  9
$SURFTAB2
 70
     6
  9
$SURFTYPE
 70
     6
  9
$SURFU
 70
     6
  9
$SURFV
 70
     6
  9
$UCSBASE
  2

  9
$UCSNAME
  2

  9
$UCSORG
 10
0.0
 20
0.0
 30
0.0
  9
$UCSXDIR
 10
1.0
 20
0.0
 30
0.0
  9
$UCSYDIR
 10
0.0
 20
1.0
 30
0.0
  9
$UCSORTHOREF
  2

  9
$UCSORTHOVIEW
 70
     0
  9
$UCSORGTOP
 10
0.0
 20
0.0
 30
0.0
  9
$UCSORGBOTTOM
 10
0.0
 20
0.0
 30
0.0
  9
$UCSORGLEFT
 10
0.0
 20
0.0
 30
0.0
  9
$UCSORGRIGHT
 10
0.0
 20
0.0
 30
0.0
  9
$UCSORGFRONT
 10
0.0
 20
0.0
 30
0.0
  9
$UCSORGBACK
 10
0.0
 20
0.0
 30
0.0
  9
$PUCSBASE
  2

  9
$PUCSNAME
  2

  9
$PUCSORG
 10
0.0
 20
0.0
 30
0.0
  9
$PUCSXDIR
 10
1.0
 20
0.0
 30
0.0
  9
$PUCSYDIR
 10
0.0
 20
1.0
 30
0.0
  9
$PUCSORTHOREF
  2

  9
$PUCSORTHOVIEW
 70
     0
  9
$PUCSORGTOP
 10
0.0
 20
0.0
 30
0.0
  9
$PUCSORGBOTTOM
 10
0.0
 20
0.0
 30
0.0
  9
$PUCSORGLEFT
 10
0.0
 20
0.0
 30
0.0
  9
$PUCSORGRIGHT
 10
0.0
 20
0.0
 30
0.0
  9
$PUCSORGFRONT
 10
0.0
 20
0.0
 30
0.0
  9
$PUCSORGBACK
 10
0.0
 20
0.0
 30
0.0
  9
$USERI1
 70
     0
  9
$USERI2
 70
     0
  9
$USERI3
 70
     0
  9
$USERI4
 70
     0
  9
$USERI5
 70
     0
  9
$USERR1
 40
0.0
  9
$USERR2
 40
0.0
  9
$USERR3
 40
0.0
  9
$USERR4
 40
0.0
  9
$USERR5
 40
0.0
  9
$WORLDVIEW
 70
     1
  9
$SHADEDGE
 70
     3
  9
$SHADEDIF
 70
    70
  9
$TILEMODE
 70
     1
  9
$MAXACTVP
 70
    64
  9
$PINSBASE
 10
0.0
 20
0.0
 30
0.0
  9
$PLIMCHECK
 70
     0
  9
$PEXTMIN
 10
1.000000000000000E+20
 20
1.000000000000000E+20
 30
1.000000000000000E+20
  9
$PEXTMAX
 10
-1.000000000000000E+20
 20
-1.000000000000000E+20
 30
-1.000000000000000E+20
  9
$PLIMMIN
 10
0.0
 20
0.0
  9
$PLIMMAX
 10
12.0
 20
9.0
  9
$UNITMODE
 70
     0
  9
$VISRETAIN
 70
     1
  9
$PLINEGEN
 70
     0
  9
$PSLTSCALE
 70
     1
  9
$TREEDEPTH
 70
  3020
  9
$CMLSTYLE
  2
Standard
  9
$CMLJUST
 70
     0
  9
$CMLSCALE
 40
1.0
  9
$PROXYGRAPHICS
 70
     1
  9
$MEASUREMENT
 70
     0
  9
$CELWEIGHT
370
    -1
  9
$ENDCAPS
280
     0
  9
$JOINSTYLE
280
     0
  9
$LWDISPLAY
290
     0
  9
$INSUNITS
 70
     0
  9
$HYPERLINKBASE
  1

  9
$STYLESHEET
  1

  9
$XEDIT
290
     1
  9
$CEPSNTYPE
380
     0
  9
$PSTYLEMODE
290
     1
  9
$FINGERPRINTGUID
  2
{77C7CE7D-48EB-488A-9203-8C9BF3B22932}
  9
$VERSIONGUID
  2
{EC3E6B05-7640-4374-9873-C9AB81F9FEE7}
  9
$EXTNAMES
290
     1
  9
$PSVPSCALE
 40
0.0
  9
$OLESTARTUP
290
     0
  0
ENDSEC
  0
SECTION
  2
CLASSES
  0
CLASS
  1
ACDBDICTIONARYWDFLT
  2
AcDbDictionaryWithDefault
  3
ObjectDBX Classes
 90
        0
280
     0
281
     0
  0
CLASS
  1
DICTIONARYVAR
  2
AcDbDictionaryVar
  3
ObjectDBX Classes
 90
        0
280
     0
281
     0
  0
CLASS
  1
ACDBPLACEHOLDER
  2
AcDbPlaceHolder
  3
ObjectDBX Classes
 90
        0
280
     0
281
     0
  0
CLASS
  1
LAYOUT
  2
AcDbLayout
  3
ObjectDBX Classes
 90
        0
280
     0
281
     0
  0
ENDSEC
  0
SECTION
  2
TABLES
  0
TABLE
  2
VPORT
  5
8
330
0
100
AcDbSymbolTable
 70
     3
  0
VPORT
  5
3BA
330
8
100
AcDbSymbolTableRecord
100
AcDbViewportTableRecord
  2
*Active
 70
     0
 10
0.0
 20
0.0
 11
1.0
 21
1.0
 12
287.2813634441276
 22
227.7080845183326
 13
0.0
 23
0.0
 14
1.0
 24
1.0
 15
0.0
 25
0.0
 16
0.0
 26
0.0
 36
1.0
 17
0.0
 27
0.0
 37
0.0
 40
543.8712704831219
 41
1.753320683111954
 42
50.0
 43
0.0
 44
0.0
 50
0.0
 51
0.0
 71
     0
 72
  1000
 73
     1
 74
     3
 75
     0
 76
     0
 77
     0
 78
     0
281
     0
 65
     1
110
0.0
120
0.0
130
0.0
111
1.0
121
0.0
131
0.0
112
0.0
122
1.0
132
0.0
 79
     0
146
0.0
  0
ENDTAB
  0
TABLE
  2
LTYPE
  5
5
330
0
100
AcDbSymbolTable
 70
     1
  0
LTYPE
  5
13
330
5
100
AcDbSymbolTableRecord
100
AcDbLinetypeTableRecord
  2
ByBlock
 70
     0
  3

 72
    65
 73
     0
 40
0.0
  0
LTYPE
  5
14
330
5
100
AcDbSymbolTableRecord
100
AcDbLinetypeTableRecord
  2
ByLayer
 70
     0
  3

 72
    65
 73
     0
 40
0.0
  0
LTYPE
  5
15
330
5
100
AcDbSymbolTableRecord
100
AcDbLinetypeTableRecord
  2
Continuous
 70
     0
  3
Solid line
 72
    65
 73
     0
 40
0.0
  0
ENDTAB
  0
TABLE
  2
LAYER
  5
2
330
0
100
AcDbSymbolTable
 70
     2
  0
LAYER
  5
10
330
2
100
AcDbSymbolTableRecord
100
AcDbLayerTableRecord
  2
0
 70
     0
 62
     7
  6
Continuous
370
    -3
390
F
  0
LAYER
  5
397
330
2
100
AcDbSymbolTableRecord
100
AcDbLayerTableRecord
  2
Defpoints
 70
     0
 62
     7
  6
Continuous
290
     0
370
    -3
390
F
  0
ENDTAB
  0
TABLE
  2
STYLE
  5
3
330
0
100
AcDbSymbolTable
 70
     1
  0
STYLE
  5
11
330
3
100
AcDbSymbolTableRecord
100
AcDbTextStyleTableRecord
  2
Standard
 70
     0
 40
0.0
 41
1.0
 50
0.0
 71
     0
 42
0.2
  3
txt
  4

  0
ENDTAB
  0
TABLE
  2
VIEW
  5
6
330
0
100
AcDbSymbolTable
 70
     0
  0
ENDTAB
  0
TABLE
  2
UCS
  5
7
330
0
100
AcDbSymbolTable
 70
     0
  0
ENDTAB
  0
TABLE
  2
APPID
  5
9
330
0
100
AcDbSymbolTable
 70
     1
  0
APPID
  5
12
330
9
100
AcDbSymbolTableRecord
100
AcDbRegAppTableRecord
  2
ACAD
 70
     0
  0
ENDTAB
  0
TABLE
  2
DIMSTYLE
  5
A
330
0
100
AcDbSymbolTable
 70
     1
100
AcDbDimStyleTable
 71
     1
340
392
  0
DIMSTYLE
105
392
330
A
100
AcDbSymbolTableRecord
100
AcDbDimStyleTableRecord
  2
Standard
 70
     0
340
11
  0
ENDTAB
  0
TABLE
  2
BLOCK_RECORD
  5
1
330
0
100
AcDbSymbolTable
 70
     1
  0
BLOCK_RECORD
  5
20
330
1
100
AcDbSymbolTableRecord
100
AcDbBlockTableRecord
  2
*Model_Space
340
23
  0
BLOCK_RECORD
  5
1C
330
1
100
AcDbSymbolTableRecord
100
AcDbBlockTableRecord
  2
*Paper_Space
340
1F
  0
BLOCK_RECORD
  5
398
330
1
100
AcDbSymbolTableRecord
100
AcDbBlockTableRecord
  2
*D0
340
0
  0
ENDTAB
  0
ENDSEC
  0
SECTION
  2
BLOCKS
  0
BLOCK
  5
21
330
20
100
AcDbEntity
  8
0
100
AcDbBlockBegin
  2
*Model_Space
 70
     0
 10
0.0
 20
0.0
 30
0.0
  3
*Model_Space
  1

  0
ENDBLK
  5
22
330
20
100
AcDbEntity
  8
0
100
AcDbBlockEnd
  0
BLOCK
  5
1D
330
1C
100
AcDbEntity
 67
     1
  8
0
100
AcDbBlockBegin
  2
*Paper_Space
 70
     0
 10
0.0
 20
0.0
 30
0.0
  3
*Paper_Space
  1

  0
ENDBLK
  5
1E
330
1C
100
AcDbEntity
 67
     1
  8
0
100
AcDbBlockEnd
  0
BLOCK
  5
3A1
330
398
100
AcDbEntity
  8
0
100
AcDbBlockBegin
  2
*D0
 70
     1
 10
0.0
 20
0.0
 30
0.0
  3
*D0
  1

  0
LINE
  5
399
330
398
100
AcDbEntity
  8
0
  6
Continuous
 62
     0
370
    -2
100
AcDbLine
 10
64.08744585165418
 20
86.19283125833225
 30
0.0
 11
64.26744585165419
 21
86.19283125833225
 31
0.0
  0
LINE
  5
39A
330
398
100
AcDbEntity
  8
0
  6
Continuous
 62
     0
370
    -2
100
AcDbLine
 10
64.26744585165419
 20
86.19283125833225
 30
0.0
 11
68.56638502753371
 21
81.21177495494988
 31
0.0
  0
MTEXT
  5
39B
330
398
100
AcDbEntity
  8
0
  6
Continuous
 62
     0
100
AcDbMText
 10
63.44244585165419
 20
86.19283125833225
 30
0.0
 40
0.18
 41
0.0
 71
     5
 72
     1
  1
\A1;\U+220530.0000
 73
     1
 44
1.0
1001
ACAD
1000
MTEXTBEGIN
1070
    73
1070
     1
1070
    44
1040
1.0
1070
    74
1070
     0
1000
MTEXTEND
  0
SOLID
  5
39C
330
398
100
AcDbEntity
  8
0
  6
Continuous
 62
     0
100
AcDbTrace
 10
68.58909621719718
 20
81.23137602288176
 30
0.0
 11
68.54367383787026
 21
81.192173887018
 31
0.0
 12
68.68399143512498
 22
81.07550781696906
 32
0.0
 13
68.68399143512498
 23
81.07550781696906
 33
0.0
  0
LINE
  5
39D
330
398
100
AcDbEntity
  8
0
  6
Continuous
 62
     0
370
    -2
100
AcDbLine
 10
78.39452544076689
 20
69.71991293923309
 30
0.0
 11
78.5745254407669
 21
69.71991293923311
 31
0.0
  0
LINE
  5
39E
330
398
100
AcDbEntity
  8
0
  6
Continuous
 62
     0
370
    -2
100
AcDbLine
 10
78.48452544076689
 20
69.62991293923311
 30
0.0
 11
78.48452544076689
 21
69.80991293923311
 31
0.0
  0
POINT
  5
39F
330
398
100
AcDbEntity
  8
Defpoints
  6
Continuous
 62
     0
100
AcDbPoint
 10
68.68399143512498
 20
81.07550781696906
 30
0.0
  0
POINT
  5
3A0
330
398
100
AcDbEntity
  8
Defpoints
  6
Continuous
 62
     0
100
AcDbPoint
 10
88.2850594464088
 20
58.36431806149715
 30
0.0
  0
ENDBLK
  5
3A2
330
398
100
AcDbEntity
  8
0
100
AcDbBlockEnd
  0
ENDSEC
  0
SECTION
  2
ENTITIES
  0
LWPOLYLINE
  5
24
330
20
100
AcDbEntity
  8
0
100
AcDbPolyline
 90
        5
 70
     1
 43
0.0
 10
0.0
 20
200.0
 10
310.5
 20
200.0
 10
310.5
 20
0.0
 10
0.0
 20
0.0
 10
0.0
 20
200.0
  0
LWPOLYLINE
  5
2B
330
20
100
AcDbEntity
  8
0
100
AcDbPolyline
 90
        7
 70
     1
 43
0.0
 10
17.99999999999999
 20
148.0
 42
0.41421356
 10
20.99999999999999
 20
151.0
 42
0.41421356
 10
17.99999999999999
 20
154.0
 10
12.0
 20
154.0
 42
0.41421356
 10
9.0
 20
151.0
 42
0.41421356
 10
12.0
 20
148.0
 10
17.99999999999999
 20
148.0
  0
LWPOLYLINE
  5
34
330
20
100
AcDbEntity
  8
0
100
AcDbPolyline
 90
        7
 70
     1
 43
0.0
 10
17.99999999999999
 20
46.0
 10
12.0
 20
46.0
 42
-0.41421356
 10
9.0
 20
49.0
 42
-0.41421356
 10
12.0
 20
51.99999999999999
 10
17.99999999999999
 20
51.99999999999999
 42
-0.41421356
 10
20.99999999999999
 20
49.0
 42
-0.41421356
 10
17.99999999999999
 20
46.0
  0
LWPOLYLINE
  5
3D
330
20
100
AcDbEntity
  8
0
100
AcDbPolyline
 90
        7
 70
     1
 43
0.0
 10
298.5
 20
19.5
 42
-0.41421356
 10
295.5
 20
16.5
 42
-0.41421356
 10
292.5
 20
19.5
 10
292.5
 20
25.5
 42
-0.41421356
 10
295.5
 20
28.5
 42
-0.41421356
 10
298.5
 20
25.5
 10
298.5
 20
19.5
  0
LWPOLYLINE
  5
46
330
20
100
AcDbEntity
  8
0
100
AcDbPolyline
 90
        7
 70
     1
 43
0.0
 10
298.5
 20
174.5
 10
298.5
 20
180.5
 42
0.41421356
 10
295.5
 20
183.5
 42
0.41421356
 10
292.5
 20
180.5
 10
292.5
 20
174.5
 42
0.41421356
 10
295.5
 20
171.5
 42
0.41421356
 10
298.5
 20
174.5
  0
LWPOLYLINE
  5
4F
330
20
100
AcDbEntity
  8
0
100
AcDbPolyline
 90
        7
 70
     1
 43
0.0
 10
99.0
 20
174.5
 10
99.0
 20
180.5
 42
0.41421356
 10
96.0
 20
183.5
 42
0.41421356
 10
93.0
 20
180.5
 10
93.0
 20
174.5
 42
0.41421356
 10
96.0
 20
171.5
 42
0.41421356
 10
99.0
 20
174.5
  0
LWPOLYLINE
  5
58
330
20
100
AcDbEntity
  8
0
100
AcDbPolyline
 90
        7
 70
     1
 43
0.0
 10
159.0
 20
19.5
 10
159.0
 20
25.5
 42
0.41421356
 10
156.0
 20
28.5
 42
0.41421356
 10
153.0
 20
25.5
 10
153.0
 20
19.5
 42
0.41421356
 10
156.0
 20
16.5
 42
0.41421356
 10
159.0
 20
19.5
  0
LWPOLYLINE
  5
61
330
20
100
AcDbEntity
  8
0
100
AcDbPolyline
 90
        7
 70
     1
 43
0.0
 10
279.0
 20
19.5
 10
279.0
 20
25.5
 42
0.41421356
 10
276.0
 20
28.5
 42
0.41421356
 10
273.0
 20
25.5
 10
273.0
 20
19.5
 42
0.41421356
 10
276.0
 20
16.5
 42
0.41421356
 10
279.0
 20
19.5
  0
LWPOLYLINE
  5
6A
330
20
100
AcDbEntity
  8
0
100
AcDbPolyline
 90
        7
 70
     1
 43
0.0
 10
219.0
 20
19.5
 10
219.0
 20
25.5
 42
0.41421356
 10
216.0
 20
28.5
 42
0.41421356
 10
213.0
 20
25.5
 10
213.0
 20
19.5
 42
0.41421356
 10
216.0
 20
16.5
 42
0.41421356
 10
219.0
 20
19.5
  0
LWPOLYLINE
  5
73
330
20
100
AcDbEntity
  8
0
100
AcDbPolyline
 90
        7
 70
     1
 43
0.0
 10
219.0
 20
174.5
 42
-0.41421356
 10
216.0
 20
171.5
 42
-0.41421356
 10
213.0
 20
174.5
 10
213.0
 20
180.5
 42
-0.41421356
 10
216.0
 20
183.5
 42
-0.41421356
 10
219.0
 20
180.5
 10
219.0
 20
174.5
  0
LWPOLYLINE
  5
7C
330
20
100
AcDbEntity
  8
0
100
AcDbPolyline
 90
        7
 70
     1
 43
0.0
 10
279.0
 20
174.5
 42
-0.41421356
 10
276.0
 20
171.5
 42
-0.41421356
 10
273.0
 20
174.5
 10
273.0
 20
180.5
 42
-0.41421356
 10
276.0
 20
183.5
 42
-0.41421356
 10
279.0
 20
180.5
 10
279.0
 20
174.5
  0
LWPOLYLINE
  5
85
330
20
100
AcDbEntity
  8
0
100
AcDbPolyline
 90
        7
 70
     1
 43
0.0
 10
99.0
 20
19.5
 10
99.0
 20
25.5
 42
0.41421356
 10
96.0
 20
28.5
 42
0.41421356
 10
93.0
 20
25.5
 10
93.0
 20
19.5
 42
0.41421356
 10
96.0
 20
16.5
 42
0.41421356
 10
99.0
 20
19.5
  0
LWPOLYLINE
  5
8E
330
20
100
AcDbEntity
  8
0
100
AcDbPolyline
 90
        7
 70
     1
 43
0.0
 10
159.0
 20
174.5
 10
159.0
 20
180.5
 42
0.41421356
 10
156.0
 20
183.5
 42
0.41421356
 10
153.0
 20
180.5
 10
153.0
 20
174.5
 42
0.41421356
 10
156.0
 20
171.5
 42
0.41421356
 10
159.0
 20
174.5
  0
LWPOLYLINE
  5
97
330
20
100
AcDbEntity
  8
0
100
AcDbPolyline
 90
        7
 70
     1
 43
0.0
 10
242.5
 20
69.99999999999999
 42
-0.41421356
 10
239.0
 20
66.49999999999998
 42
-0.41421356
 10
235.5
 20
69.99999999999999
 10
235.5
 20
76.99999999999999
 42
-0.41421356
 10
239.0
 20
80.49999999999998
 42
-0.41421356
 10
242.5
 20
76.99999999999999
 10
242.5
 20
69.99999999999999
  0
LWPOLYLINE
  5
A0
330
20
100
AcDbEntity
  8
0
100
AcDbPolyline
 90
        7
 70
     1
 43
0.0
 10
11.5
 20
69.99999999999999
 10
11.5
 20
76.99999999999999
 42
0.41421356
 10
8.0
 20
80.49999999999998
 42
0.41421356
 10
4.5
 20
76.99999999999999
 10
4.5
 20
69.99999999999999
 42
0.41421356
 10
8.0
 20
66.49999999999998
 42
0.41421356
 10
11.5
 20
69.99999999999999
  0
LWPOLYLINE
  5
A9
330
20
100
AcDbEntity
  8
0
100
AcDbPolyline
 90
        7
 70
     1
 43
0.0
 10
11.5
 20
123.0
 10
11.5
 20
130.0
 42
0.41421356
 10
8.0
 20
133.5
 42
0.41421356
 10
4.5
 20
130.0
 10
4.5
 20
123.0
 42
0.41421356
 10
8.0
 20
119.5
 42
0.41421356
 10
11.5
 20
123.0
  0
LWPOLYLINE
  5
B2
330
20
100
AcDbEntity
  8
0
100
AcDbPolyline
 90
        7
 70
     1
 43
0.0
 10
242.5
 20
123.0
 10
242.5
 20
130.0
 42
0.41421356
 10
239.0
 20
133.5
 42
0.41421356
 10
235.5
 20
130.0
 10
235.5
 20
123.0
 42
0.41421356
 10
239.0
 20
119.5
 42
0.41421356
 10
242.5
 20
123.0
  0
LWPOLYLINE
  5
BB
330
20
100
AcDbEntity
  8
0
100
AcDbPolyline
 90
        5
 70
     1
 43
0.0
 10
313.50393701
 20
200.0
 10
491.50393701
 20
200.0
 10
491.50393701
 20
0.0
 10
313.50393701
 20
0.0
 10
313.50393701
 20
200.0
  0
LWPOLYLINE
  5
C2
330
20
100
AcDbEntity
  8
0
100
AcDbPolyline
 90
        5
 70
     1
 43
0.0
 10
380.5039370099999
 20
177.5
 42
-0.41421356
 10
383.50393701
 20
180.5
 42
-0.41421356
 10
386.50393701
 20
177.5
 42
-0.41421356
 10
383.50393701
 20
174.5
 42
-0.41421356
 10
380.5039370099999
 20
177.5
  0
LWPOLYLINE
  5
C9
330
20
100
AcDbEntity
  8
0
100
AcDbPolyline
 90
        5
 70
     1
 43
0.0
 10
460.5039370099998
 20
177.5
 42
-0.41421356
 10
463.5039370099998
 20
180.5
 42
-0.41421356
 10
466.50393701
 20
177.5
 42
-0.41421356
 10
463.5039370099998
 20
174.5
 42
-0.41421356
 10
460.5039370099998
 20
177.5
  0
LWPOLYLINE
  5
D0
330
20
100
AcDbEntity
  8
0
100
AcDbPolyline
 90
        5
 70
     1
 43
0.0
 10
420.50393701
 20
22.5
 42
-0.41421356
 10
423.5039370099998
 20
25.5
 42
-0.41421356
 10
426.5039370099998
 20
22.5
 42
-0.41421356
 10
423.5039370099998
 20
19.5
 42
-0.41421356
 10
420.50393701
 20
22.5
  0
LWPOLYLINE
  5
D7
330
20
100
AcDbEntity
  8
0
100
AcDbPolyline
 90
        5
 70
     1
 43
0.0
 10
340.50393701
 20
22.5
 42
-0.41421356
 10
343.50393701
 20
25.5
 42
-0.41421356
 10
346.50393701
 20
22.5
 42
-0.41421356
 10
343.50393701
 20
19.5
 42
-0.41421356
 10
340.50393701
 20
22.5
  0
LWPOLYLINE
  5
DE
330
20
100
AcDbEntity
  8
0
100
AcDbPolyline
 90
        5
 70
     1
 43
0.0
 10
380.5039370099999
 20
22.5
 42
-0.41421356
 10
383.50393701
 20
25.5
 42
-0.41421356
 10
386.50393701
 20
22.5
 42
-0.41421356
 10
383.50393701
 20
19.5
 42
-0.41421356
 10
380.5039370099999
 20
22.5
  0
LWPOLYLINE
  5
E5
330
20
100
AcDbEntity
  8
0
100
AcDbPolyline
 90
        5
 70
     1
 43
0.0
 10
460.5039370099998
 20
22.5
 42
-0.41421356
 10
463.5039370099998
 20
25.5
 42
-0.41421356
 10
466.50393701
 20
22.5
 42
-0.41421356
 10
463.5039370099998
 20
19.5
 42
-0.41421356
 10
460.5039370099998
 20
22.5
  0
LWPOLYLINE
  5
EC
330
20
100
AcDbEntity
  8
0
100
AcDbPolyline
 90
        5
 70
     1
 43
0.0
 10
420.50393701
 20
177.5
 42
-0.41421356
 10
423.5039370099998
 20
180.5
 42
-0.41421356
 10
426.5039370099998
 20
177.5
 42
-0.41421356
 10
423.5039370099998
 20
174.5
 42
-0.41421356
 10
420.50393701
 20
177.5
  0
LWPOLYLINE
  5
F3
330
20
100
AcDbEntity
  8
0
100
AcDbPolyline
 90
        5
 70
     1
 43
0.0
 10
340.50393701
 20
177.5
 42
-0.41421356
 10
343.50393701
 20
180.5
 42
-0.41421356
 10
346.50393701
 20
177.5
 42
-0.41421356
 10
343.50393701
 20
174.5
 42
-0.41421356
 10
340.50393701
 20
177.5
  0
LWPOLYLINE
  5
FA
330
20
100
AcDbEntity
  8
0
100
AcDbPolyline
 90
        5
 70
     1
 43
0.0
 10
316.50393701
 20
81.99999999999999
 42
-0.41421356
 10
319.00393701
 20
84.49999999999999
 42
-0.41421356
 10
321.50393701
 20
81.99999999999999
 42
-0.41421356
 10
319.00393701
 20
79.49999999999999
 42
-0.41421356
 10
316.50393701
 20
81.99999999999999
  0
LWPOLYLINE
  5
101
330
20
100
AcDbEntity
  8
0
100
AcDbPolyline
 90
        5
 70
     1
 43
0.0
 10
348.50393701
 20
118.0
 42
-0.41421356
 10
351.00393701
 20
120.5
 42
-0.41421356
 10
353.50393701
 20
118.0
 42
-0.41421356
 10
351.00393701
 20
115.5
 42
-0.41421356
 10
348.50393701
 20
118.0
  0
LWPOLYLINE
  5
108
330
20
100
AcDbEntity
  8
0
100
AcDbPolyline
 90
        5
 70
     1
 43
0.0
 10
483.50393701
 20
118.0
 42
-0.41421356
 10
486.0039370099999
 20
120.5
 42
-0.41421356
 10
488.5039370099999
 20
118.0
 42
-0.41421356
 10
486.0039370099999
 20
115.5
 42
-0.41421356
 10
483.50393701
 20
118.0
  0
LWPOLYLINE
  5
10F
330
20
100
AcDbEntity
  8
0
100
AcDbPolyline
 90
        5
 70
     1
 43
0.0
 10
451.5039370099998
 20
81.99999999999999
 42
-0.41421356
 10
454.00393701
 20
84.49999999999999
 42
-0.41421356
 10
456.5039370099998
 20
81.99999999999999
 42
-0.41421356
 10
454.00393701
 20
79.49999999999999
 42
-0.41421356
 10
451.5039370099998
 20
81.99999999999999
  0
LWPOLYLINE
  5
116
330
20
100
AcDbEntity
  8
0
100
AcDbPolyline
 90
        5
 70
     1
 43
0.0
 10
451.5039370099998
 20
118.0
 42
-0.41421356
 10
454.00393701
 20
120.5
 42
-0.41421356
 10
456.5039370099998
 20
118.0
 42
-0.41421356
 10
454.00393701
 20
115.5
 42
-0.41421356
 10
451.5039370099998
 20
118.0
  0
LWPOLYLINE
  5
11D
330
20
100
AcDbEntity
  8
0
100
AcDbPolyline
 90
        5
 70
     1
 43
0.0
 10
483.50393701
 20
81.99999999999999
 42
-0.41421356
 10
486.0039370099999
 20
84.49999999999999
 42
-0.41421356
 10
488.5039370099999
 20
81.99999999999999
 42
-0.41421356
 10
486.0039370099999
 20
79.49999999999999
 42
-0.41421356
 10
483.50393701
 20
81.99999999999999
  0
LWPOLYLINE
  5
124
330
20
100
AcDbEntity
  8
0
100
AcDbPolyline
 90
        5
 70
     1
 43
0.0
 10
348.50393701
 20
81.99999999999999
 42
-0.41421356
 10
351.00393701
 20
84.49999999999999
 42
-0.41421356
 10
353.50393701
 20
81.99999999999999
 42
-0.41421356
 10
351.00393701
 20
79.49999999999999
 42
-0.41421356
 10
348.50393701
 20
81.99999999999999
  0
LWPOLYLINE
  5
12B
330
20
100
AcDbEntity
  8
0
100
AcDbPolyline
 90
        5
 70
     1
 43
0.0
 10
316.50393701
 20
118.0
 42
-0.41421356
 10
319.00393701
 20
120.5
 42
-0.41421356
 10
321.50393701
 20
118.0
 42
-0.41421356
 10
319.00393701
 20
115.5
 42
-0.41421356
 10
316.50393701
 20
118.0
  0
LWPOLYLINE
  5
132
330
20
100
AcDbEntity
  8
0
100
AcDbPolyline
 90
        5
 70
     1
 43
0.0
 10
417.9039370099999
 20
60.99999999999998
 42
-0.41421356
 10
420.9039370099999
 20
63.99999999999998
 42
-0.41421356
 10
423.90393701
 20
60.99999999999998
 42
-0.41421356
 10
420.9039370099999
 20
57.99999999999998
 42
-0.41421356
 10
417.9039370099999
 20
60.99999999999998
  0
LWPOLYLINE
  5
139
330
20
100
AcDbEntity
  8
0
100
AcDbPolyline
 90
        5
 70
     1
 43
0.0
 10
417.9039370099999
 20
139.0
 42
-0.41421356
 10
420.9039370099999
 20
142.0
 42
-0.41421356
 10
423.90393701
 20
139.0
 42
-0.41421356
 10
420.9039370099999
 20
136.0
 42
-0.41421356
 10
417.9039370099999
 20
139.0
  0
LWPOLYLINE
  5
140
330
20
100
AcDbEntity
  8
0
100
AcDbPolyline
 90
        5
 70
     1
 43
0.0
 10
322.90393701
 20
99.99999999999998
 42
-0.41421356
 10
325.90393701
 20
103.0
 42
-0.41421356
 10
328.90393701
 20
99.99999999999998
 42
-0.41421356
 10
325.90393701
 20
96.99999999999999
 42
-0.41421356
 10
322.90393701
 20
99.99999999999998
  0
LWPOLYLINE
  5
147
330
20
100
AcDbEntity
  8
0
100
AcDbPolyline
 90
        9
 70
     1
 43
0.0
 10
0.0
 20
208.01181102
 42
0.41421356
 10
5.0
 20
203.01181102
 10
225.0
 20
203.01181102
 42
0.41421356
 10
230.0
 20
208.01181102
 10
230.0
 20
323.51181102
 42
0.41421356
 10
225.0
 20
328.51181102
 10
5.0
 20
328.51181102
 42
0.41421356
 10
0.0
 20
323.51181102
 10
0.0
 20
208.01181102
  0
LWPOLYLINE
  5
152
330
20
100
AcDbEntity
  8
0
100
AcDbPolyline
 90
        7
 70
     1
 43
0.0
 10
21.99999999999998
 20
208.01181102
 42
-0.41421356
 10
18.99999999999999
 20
211.01181102
 42
-0.41421356
 10
21.99999999999998
 20
214.01181102
 10
37.99999999999998
 20
214.01181102
 42
-0.41421356
 10
40.99999999999997
 20
211.01181102
 42
-0.41421356
 10
37.99999999999998
 20
208.01181102
 10
21.99999999999998
 20
208.01181102
  0
LWPOLYLINE
  5
15B
330
20
100
AcDbEntity
  8
0
100
AcDbPolyline
 90
        7
 70
     1
 43
0.0
 10
21.99999999999998
 20
282.01181102
 10
37.99999999999998
 20
282.01181102
 42
0.41421356
 10
40.99999999999997
 20
285.01181102
 42
0.41421356
 10
37.99999999999998
 20
288.01181102
 10
21.99999999999998
 20
288.01181102
 42
0.41421356
 10
18.99999999999999
 20
285.01181102
 42
0.41421356
 10
21.99999999999998
 20
282.01181102
  0
LWPOLYLINE
  5
164
330
20
100
AcDbEntity
  8
0
100
AcDbPolyline
 90
        5
 70
     1
 43
0.0
 10
173.0
 20
249.01181102
 42
-0.41421356
 10
174.0
 20
248.01181102
 42
-0.41421356
 10
173.0
 20
247.01181102
 42
-0.41421356
 10
172.0
 20
248.01181102
 42
-0.41421356
 10
173.0
 20
249.01181102
  0
LWPOLYLINE
  5
16B
330
20
100
AcDbEntity
  8
0
100
AcDbPolyline
 90
        5
 70
     1
 43
0.0
 10
190.0
 20
249.01181102
 42
-0.41421356
 10
191.0
 20
248.01181102
 42
-0.41421356
 10
190.0
 20
247.01181102
 42
-0.41421356
 10
189.0
 20
248.01181102
 42
-0.41421356
 10
190.0
 20
249.01181102
  0
LWPOLYLINE
  5
172
330
20
100
AcDbEntity
  8
0
100
AcDbPolyline
 90
        5
 70
     1
 43
0.0
 10
92.5
 20
310.51181102
 42
-0.41421356
 10
96.5
 20
306.51181102
 42
-0.41421356
 10
92.5
 20
302.51181102
 42
-0.41421356
 10
88.49999999999999
 20
306.51181102
 42
-0.41421356
 10
92.5
 20
310.51181102
  0
LWPOLYLINE
  5
179
330
20
100
AcDbEntity
  8
0
100
AcDbPolyline
 90
        5
 70
     1
 43
0.0
 10
30.0
 20
263.01181102
 42
-0.41421356
 10
44.99999999999999
 20
248.01181102
 42
-0.41421356
 10
30.0
 20
233.01181102
 42
-0.41421356
 10
15.0
 20
248.01181102
 42
-0.41421356
 10
30.0
 20
263.01181102
  0
LWPOLYLINE
  5
180
330
20
100
AcDbEntity
  8
0
100
AcDbPolyline
 90
        5
 70
     1
 43
0.0
 10
181.5
 20
254.01181102
 42
-0.41421356
 10
187.5
 20
248.01181102
 42
-0.41421356
 10
181.5
 20
242.01181102
 42
-0.41421356
 10
175.5
 20
248.01181102
 42
-0.41421356
 10
181.5
 20
254.01181102
  0
LWPOLYLINE
  5
187
330
20
100
AcDbEntity
  8
0
100
AcDbPolyline
 90
        5
 70
     1
 43
0.0
 10
137.5
 20
270.51181102
 42
-0.41421356
 10
141.5
 20
266.51181102
 42
-0.41421356
 10
137.5
 20
262.51181102
 42
-0.41421356
 10
133.5
 20
266.51181102
 42
-0.41421356
 10
137.5
 20
270.51181102
  0
LWPOLYLINE
  5
18E
330
20
100
AcDbEntity
  8
0
100
AcDbPolyline
 90
        5
 70
     1
 43
0.0
 10
92.5
 20
270.51181102
 42
-0.41421356
 10
96.5
 20
266.51181102
 42
-0.41421356
 10
92.5
 20
262.51181102
 42
-0.41421356
 10
88.49999999999999
 20
266.51181102
 42
-0.41421356
 10
92.5
 20
270.51181102
  0
LWPOLYLINE
  5
195
330
20
100
AcDbEntity
  8
0
100
AcDbPolyline
 90
        5
 70
     1
 43
0.0
 10
137.5
 20
310.51181102
 42
-0.41421356
 10
141.5
 20
306.51181102
 42
-0.41421356
 10
137.5
 20
302.51181102
 42
-0.41421356
 10
133.5
 20
306.51181102
 42
-0.41421356
 10
137.5
 20
310.51181102
  0
LWPOLYLINE
  5
19C
330
20
100
AcDbEntity
  8
0
100
AcDbPolyline
 90
        9
 70
     1
 43
0.0
 10
233.0118110199999
 20
208.01181102
 42
0.41421356
 10
238.01181102
 20
203.01181102
 10
458.01181102
 20
203.01181102
 42
0.41421356
 10
463.01181102
 20
208.01181102
 10
463.01181102
 20
323.51181102
 42
0.41421356
 10
458.01181102
 20
328.51181102
 10
238.01181102
 20
328.51181102
 42
0.41421356
 10
233.0118110199999
 20
323.51181102
 10
233.0118110199999
 20
208.01181102
  0
LWPOLYLINE
  5
1A7
330
20
100
AcDbEntity
  8
0
100
AcDbPolyline
 90
        7
 70
     1
 43
0.0
 10
255.01181102
 20
208.01181102
 10
271.01181102
 20
208.01181102
 42
0.41421356
 10
274.01181102
 20
211.01181102
 42
0.41421356
 10
271.01181102
 20
214.01181102
 10
255.01181102
 20
214.01181102
 42
0.41421356
 10
252.0118110199999
 20
211.01181102
 42
0.41421356
 10
255.01181102
 20
208.01181102
  0
LWPOLYLINE
  5
1B0
330
20
100
AcDbEntity
  8
0
100
AcDbPolyline
 90
        7
 70
     1
 43
0.0
 10
255.01181102
 20
282.01181102
 10
271.01181102
 20
282.01181102
 42
0.41421356
 10
274.01181102
 20
285.01181102
 42
0.41421356
 10
271.01181102
 20
288.01181102
 10
255.01181102
 20
288.01181102
 42
0.41421356
 10
252.0118110199999
 20
285.01181102
 42
0.41421356
 10
255.01181102
 20
282.01181102
  0
LWPOLYLINE
  5
1B9
330
20
100
AcDbEntity
  8
0
100
AcDbPolyline
 90
        5
 70
     1
 43
0.0
 10
406.01181102
 20
249.01181102
 42
-0.41421356
 10
407.01181102
 20
248.01181102
 42
-0.41421356
 10
406.01181102
 20
247.01181102
 42
-0.41421356
 10
405.01181102
 20
248.01181102
 42
-0.41421356
 10
406.01181102
 20
249.01181102
  0
LWPOLYLINE
  5
1C0
330
20
100
AcDbEntity
  8
0
100
AcDbPolyline
 90
        5
 70
     1
 43
0.0
 10
423.0118110199998
 20
249.01181102
 42
-0.41421356
 10
424.01181102
 20
248.01181102
 42
-0.41421356
 10
423.0118110199998
 20
247.01181102
 42
-0.41421356
 10
422.01181102
 20
248.01181102
 42
-0.41421356
 10
423.0118110199998
 20
249.01181102
  0
LWPOLYLINE
  5
1C7
330
20
100
AcDbEntity
  8
0
100
AcDbPolyline
 90
        5
 70
     1
 43
0.0
 10
325.51181102
 20
310.51181102
 42
-0.41421356
 10
329.51181102
 20
306.51181102
 42
-0.41421356
 10
325.51181102
 20
302.51181102
 42
-0.41421356
 10
321.51181102
 20
306.51181102
 42
-0.41421356
 10
325.51181102
 20
310.51181102
  0
LWPOLYLINE
  5
1CE
330
20
100
AcDbEntity
  8
0
100
AcDbPolyline
 90
        5
 70
     1
 43
0.0
 10
263.01181102
 20
263.01181102
 42
-0.41421356
 10
278.01181102
 20
248.01181102
 42
-0.41421356
 10
263.01181102
 20
233.01181102
 42
-0.41421356
 10
248.0118110199999
 20
248.01181102
 42
-0.41421356
 10
263.01181102
 20
263.01181102
  0
LWPOLYLINE
  5
1D5
330
20
100
AcDbEntity
  8
0
100
AcDbPolyline
 90
        5
 70
     1
 43
0.0
 10
414.5118110199998
 20
254.01181102
 42
-0.41421356
 10
420.51181102
 20
248.01181102
 42
-0.41421356
 10
414.5118110199998
 20
242.01181102
 42
-0.41421356
 10
408.51181102
 20
248.01181102
 42
-0.41421356
 10
414.5118110199998
 20
254.01181102
  0
LWPOLYLINE
  5
1DC
330
20
100
AcDbEntity
  8
0
100
AcDbPolyline
 90
        5
 70
     1
 43
0.0
 10
370.51181102
 20
270.51181102
 42
-0.41421356
 10
374.51181102
 20
266.51181102
 42
-0.41421356
 10
370.51181102
 20
262.51181102
 42
-0.41421356
 10
366.51181102
 20
266.51181102
 42
-0.41421356
 10
370.51181102
 20
270.51181102
  0
LWPOLYLINE
  5
1E3
330
20
100
AcDbEntity
  8
0
100
AcDbPolyline
 90
        5
 70
     1
 43
0.0
 10
325.51181102
 20
270.51181102
 42
-0.41421356
 10
329.51181102
 20
266.51181102
 42
-0.41421356
 10
325.51181102
 20
262.51181102
 42
-0.41421356
 10
321.51181102
 20
266.51181102
 42
-0.41421356
 10
325.51181102
 20
270.51181102
  0
LWPOLYLINE
  5
1EA
330
20
100
AcDbEntity
  8
0
100
AcDbPolyline
 90
        5
 70
     1
 43
0.0
 10
370.51181102
 20
310.51181102
 42
-0.41421356
 10
374.51181102
 20
306.51181102
 42
-0.41421356
 10
370.51181102
 20
302.51181102
 42
-0.41421356
 10
366.51181102
 20
306.51181102
 42
-0.41421356
 10
370.51181102
 20
310.51181102
  0
LWPOLYLINE
  5
1F1
330
20
100
AcDbEntity
  8
0
100
AcDbPolyline
 90
        9
 70
     1
 43
0.0
 10
0.0
 20
336.51574803
 42
0.41421356
 10
5.0
 20
331.51574803
 10
195.0
 20
331.51574803
 42
0.41421356
 10
200.0
 20
336.51574803
 10
200.0
 20
416.51574803
 42
0.41421356
 10
195.0
 20
421.51574803
 10
5.0
 20
421.51574803
 42
0.41421356
 10
0.0
 20
416.51574803
 10
0.0
 20
336.51574803
  0
LWPOLYLINE
  5
1FC
330
20
100
AcDbEntity
  8
0
100
AcDbPolyline
 90
        7
 70
     1
 43
0.0
 10
33.1
 20
336.51574803
 10
49.1
 20
336.51574803
 42
0.41421356
 10
52.1
 20
339.51574803
 42
0.41421356
 10
49.1
 20
342.51574803
 10
33.1
 20
342.51574803
 42
0.41421356
 10
30.1
 20
339.51574803
 42
0.41421356
 10
33.1
 20
336.51574803
  0
LWPOLYLINE
  5
205
330
20
100
AcDbEntity
  8
0
100
AcDbPolyline
 90
        7
 70
     1
 43
0.0
 10
33.1
 20
410.5157480299999
 42
-0.41421356
 10
30.1
 20
413.51574803
 42
-0.41421356
 10
33.1
 20
416.51574803
 10
49.1
 20
416.51574803
 42
-0.41421356
 10
52.1
 20
413.51574803
 42
-0.41421356
 10
49.1
 20
410.5157480299999
 10
33.1
 20
410.5157480299999
  0
LWPOLYLINE
  5
20E
330
20
100
AcDbEntity
  8
0
100
AcDbPolyline
 90
        7
 70
     1
 43
0.0
 10
178.0
 20
334.51574803
 10
190.0
 20
334.51574803
 42
0.41421356
 10
193.0
 20
337.51574803
 42
0.41421356
 10
190.0
 20
340.51574803
 10
178.0
 20
340.51574803
 42
0.41421356
 10
175.0
 20
337.51574803
 42
0.41421356
 10
178.0
 20
334.51574803
  0
LWPOLYLINE
  5
217
330
20
100
AcDbEntity
  8
0
100
AcDbPolyline
 90
        7
 70
     1
 43
0.0
 10
76.0
 20
355.51574803
 10
88.0
 20
355.51574803
 42
0.41421356
 10
91.0
 20
358.51574803
 42
0.41421356
 10
88.0
 20
361.51574803
 10
76.0
 20
361.51574803
 42
0.41421356
 10
73.0
 20
358.51574803
 42
0.41421356
 10
76.0
 20
355.51574803
  0
LWPOLYLINE
  5
220
330
20
100
AcDbEntity
  8
0
100
AcDbPolyline
 90
        7
 70
     1
 43
0.0
 10
76.0
 20
391.51574803
 42
-0.41421356
 10
73.0
 20
394.51574803
 42
-0.41421356
 10
76.0
 20
397.51574803
 10
88.0
 20
397.51574803
 42
-0.41421356
 10
91.0
 20
394.51574803
 42
-0.41421356
 10
88.0
 20
391.51574803
 10
76.0
 20
391.51574803
  0
LWPOLYLINE
  5
229
330
20
100
AcDbEntity
  8
0
100
AcDbPolyline
 90
        7
 70
     1
 43
0.0
 10
178.0
 20
412.51574803
 10
190.0
 20
412.51574803
 42
0.41421356
 10
193.0
 20
415.5157480299999
 42
0.41421356
 10
190.0
 20
418.51574803
 10
178.0
 20
418.51574803
 42
0.41421356
 10
175.0
 20
415.5157480299999
 42
0.41421356
 10
178.0
 20
412.51574803
  0
LWPOLYLINE
  5
232
330
20
100
AcDbEntity
  8
0
100
AcDbPolyline
 90
        5
 70
     1
 43
0.0
 10
161.1
 20
386.01574803
 42
-0.41421356
 10
162.1
 20
385.01574803
 42
-0.41421356
 10
161.1
 20
384.01574803
 42
-0.41421356
 10
160.1
 20
385.01574803
 42
-0.41421356
 10
161.1
 20
386.01574803
  0
LWPOLYLINE
  5
239
330
20
100
AcDbEntity
  8
0
100
AcDbPolyline
 90
        5
 70
     1
 43
0.0
 10
161.1
 20
369.01574803
 42
-0.41421356
 10
162.1
 20
368.01574803
 42
-0.41421356
 10
161.1
 20
367.01574803
 42
-0.41421356
 10
160.1
 20
368.01574803
 42
-0.41421356
 10
161.1
 20
369.01574803
  0
LWPOLYLINE
  5
240
330
20
100
AcDbEntity
  8
0
100
AcDbPolyline
 90
        5
 70
     1
 43
0.0
 10
161.1
 20
382.51574803
 42
-0.41421356
 10
167.1
 20
376.51574803
 42
-0.41421356
 10
161.1
 20
370.51574803
 42
-0.41421356
 10
155.1
 20
376.51574803
 42
-0.41421356
 10
161.1
 20
382.51574803
  0
LWPOLYLINE
  5
247
330
20
100
AcDbEntity
  8
0
100
AcDbPolyline
 90
        5
 70
     1
 43
0.0
 10
41.10000000000002
 20
391.51574803
 42
-0.41421356
 10
56.1
 20
376.51574803
 42
-0.41421356
 10
41.10000000000002
 20
361.51574803
 42
-0.41421356
 10
26.1
 20
376.51574803
 42
-0.41421356
 10
41.10000000000002
 20
391.51574803
  0
LWPOLYLINE
  5
24E
330
20
100
AcDbEntity
  8
0
100
AcDbPolyline
 90
       13
 70
     1
 43
0.0
 10
203.01181102
 20
356.51574803
 42
0.41421356
 10
208.01181102
 20
351.51574803
 10
317.11181102
 20
351.51574803
 10
317.11181102
 20
331.51574803
 10
357.11181102
 20
331.51574803
 42
0.41421356
 10
362.1118110199999
 20
336.51574803
 10
362.1118110199999
 20
456.5157480299999
 42
0.41421356
 10
357.11181102
 20
461.5157480299999
 10
317.11181102
 20
461.5157480299999
 10
317.11181102
 20
441.5157480299999
 10
208.01181102
 20
441.5157480299999
 42
0.41421356
 10
203.01181102
 20
436.5157480299999
 10
203.01181102
 20
356.51574803
  0
LWPOLYLINE
  5
25D
330
20
100
AcDbEntity
  8
0
100
AcDbPolyline
 90
        7
 70
     1
 43
0.0
 10
340.11181102
 20
342.51574803
 42
-0.41421356
 10
337.11181102
 20
345.51574803
 42
-0.41421356
 10
340.11181102
 20
348.51574803
 10
346.11181102
 20
348.51574803
 42
-0.41421356
 10
349.11181102
 20
345.51574803
 42
-0.41421356
 10
346.11181102
 20
342.51574803
 10
340.11181102
 20
342.51574803
  0
LWPOLYLINE
  5
266
330
20
100
AcDbEntity
  8
0
100
AcDbPolyline
 90
        7
 70
     1
 43
0.0
 10
340.11181102
 20
444.5157480299999
 10
346.11181102
 20
444.5157480299999
 42
0.41421356
 10
349.11181102
 20
447.5157480299999
 42
0.41421356
 10
346.11181102
 20
450.5157480299999
 10
340.11181102
 20
450.5157480299999
 42
0.41421356
 10
337.11181102
 20
447.5157480299999
 42
0.41421356
 10
340.11181102
 20
444.5157480299999
  0
LWPOLYLINE
  5
26F
330
20
100
AcDbEntity
  8
0
100
AcDbPolyline
 90
        7
 70
     1
 43
0.0
 10
236.11181102
 20
356.51574803
 10
252.11181102
 20
356.51574803
 42
0.41421356
 10
255.11181102
 20
359.51574803
 42
0.41421356
 10
252.11181102
 20
362.51574803
 10
236.11181102
 20
362.51574803
 42
0.41421356
 10
233.11181102
 20
359.51574803
 42
0.41421356
 10
236.11181102
 20
356.51574803
  0
LWPOLYLINE
  5
278
330
20
100
AcDbEntity
  8
0
100
AcDbPolyline
 90
        7
 70
     1
 43
0.0
 10
236.11181102
 20
430.51574803
 42
-0.41421356
 10
233.11181102
 20
433.51574803
 42
-0.41421356
 10
236.11181102
 20
436.5157480299999
 10
252.11181102
 20
436.5157480299999
 42
-0.41421356
 10
255.11181102
 20
433.51574803
 42
-0.41421356
 10
252.11181102
 20
430.51574803
 10
236.11181102
 20
430.51574803
  0
LWPOLYLINE
  5
281
330
20
100
AcDbEntity
  8
0
100
AcDbPolyline
 90
        5
 70
     1
 43
0.0
 10
244.11181102
 20
411.5157480299999
 42
-0.41421356
 10
259.11181102
 20
396.51574803
 42
-0.41421356
 10
244.11181102
 20
381.51574803
 42
-0.41421356
 10
229.11181102
 20
396.51574803
 42
-0.41421356
 10
244.11181102
 20
411.5157480299999
  0
LWPOLYLINE
  5
288
330
20
100
AcDbEntity
  8
0
100
AcDbPolyline
 90
        5
 70
     1
 43
0.0
 10
365.11811024
 20
389.71574803
 10
455.1181102399998
 20
389.71574803
 10
455.1181102399998
 20
331.51574803
 10
365.11811024
 20
331.51574803
 10
365.11811024
 20
389.71574803
  0
LWPOLYLINE
  5
28F
330
20
100
AcDbEntity
  8
0
100
AcDbPolyline
 90
        5
 70
     1
 43
0.0
 10
391.06811024
 20
360.61574803
 42
-0.41421356
 10
410.11811024
 20
379.66574803
 42
-0.41421356
 10
429.16811024
 20
360.61574803
 42
-0.41421356
 10
410.11811024
 20
341.56574803
 42
-0.41421356
 10
391.06811024
 20
360.61574803
  0
LWPOLYLINE
  5
296
330
20
100
AcDbEntity
  8
0
100
AcDbPolyline
 90
        5
 70
     1
 43
0.0
 10
444.11811024
 20
360.61574803
 42
-0.41421356
 10
447.1181102399998
 20
363.61574803
 42
-0.41421356
 10
450.11811024
 20
360.61574803
 42
-0.41421356
 10
447.1181102399998
 20
357.61574803
 42
-0.41421356
 10
444.11811024
 20
360.61574803
  0
LWPOLYLINE
  5
29D
330
20
100
AcDbEntity
  8
0
100
AcDbPolyline
 90
        5
 70
     1
 43
0.0
 10
370.11811024
 20
360.61574803
 42
-0.41421356
 10
373.11811024
 20
363.61574803
 42
-0.41421356
 10
376.1181102399998
 20
360.61574803
 42
-0.41421356
 10
373.11811024
 20
357.61574803
 42
-0.41421356
 10
370.11811024
 20
360.61574803
  0
LWPOLYLINE
  5
2A4
330
20
100
AcDbEntity
  8
0
100
AcDbPolyline
 90
        5
 70
     1
 43
0.0
 10
384.04811024
 20
384.18574803
 42
-0.41421356
 10
386.54811024
 20
386.68574803
 42
-0.41421356
 10
389.04811024
 20
384.18574803
 42
-0.41421356
 10
386.54811024
 20
381.68574803
 42
-0.41421356
 10
384.04811024
 20
384.18574803
  0
LWPOLYLINE
  5
2AB
330
20
100
AcDbEntity
  8
0
100
AcDbPolyline
 90
        5
 70
     1
 43
0.0
 10
431.1881102399998
 20
384.18574803
 42
-0.41421356
 10
433.68811024
 20
386.68574803
 42
-0.41421356
 10
436.1881102399999
 20
384.18574803
 42
-0.41421356
 10
433.68811024
 20
381.68574803
 42
-0.41421356
 10
431.1881102399998
 20
384.18574803
  0
LWPOLYLINE
  5
2B2
330
20
100
AcDbEntity
  8
0
100
AcDbPolyline
 90
        5
 70
     1
 43
0.0
 10
431.1881102399998
 20
337.04574803
 42
-0.41421356
 10
433.68811024
 20
339.54574803
 42
-0.41421356
 10
436.1881102399999
 20
337.04574803
 42
-0.41421356
 10
433.68811024
 20
334.54574803
 42
-0.41421356
 10
431.1881102399998
 20
337.04574803
  0
LWPOLYLINE
  5
2B9
330
20
100
AcDbEntity
  8
0
100
AcDbPolyline
 90
        5
 70
     1
 43
0.0
 10
384.04811024
 20
337.04574803
 42
-0.41421356
 10
386.54811024
 20
339.54574803
 42
-0.41421356
 10
389.04811024
 20
337.04574803
 42
-0.41421356
 10
386.54811024
 20
334.54574803
 42
-0.41421356
 10
384.04811024
 20
337.04574803
  0
LWPOLYLINE
  5
2C0
330
20
100
AcDbEntity
  8
0
100
AcDbPolyline
 90
        5
 70
     1
 43
0.0
 10
365.11811024
 20
450.9165354299999
 10
455.1181102399998
 20
450.9165354299999
 10
455.1181102399998
 20
392.71653543
 10
365.11811024
 20
392.71653543
 10
365.11811024
 20
450.9165354299999
  0
LWPOLYLINE
  5
2C7
330
20
100
AcDbEntity
  8
0
100
AcDbPolyline
 90
        5
 70
     1
 43
0.0
 10
391.06811024
 20
421.8165354299999
 42
-0.41421356
 10
410.11811024
 20
440.86653543
 42
-0.41421356
 10
429.16811024
 20
421.8165354299999
 42
-0.41421356
 10
410.11811024
 20
402.7665354299999
 42
-0.41421356
 10
391.06811024
 20
421.8165354299999
  0
LWPOLYLINE
  5
2CE
330
20
100
AcDbEntity
  8
0
100
AcDbPolyline
 90
        5
 70
     1
 43
0.0
 10
444.11811024
 20
421.8165354299999
 42
-0.41421356
 10
447.1181102399998
 20
424.81653543
 42
-0.41421356
 10
450.11811024
 20
421.8165354299999
 42
-0.41421356
 10
447.1181102399998
 20
418.8165354299999
 42
-0.41421356
 10
444.11811024
 20
421.8165354299999
  0
LWPOLYLINE
  5
2D5
330
20
100
AcDbEntity
  8
0
100
AcDbPolyline
 90
        5
 70
     1
 43
0.0
 10
370.11811024
 20
421.8165354299999
 42
-0.41421356
 10
373.11811024
 20
424.81653543
 42
-0.41421356
 10
376.1181102399998
 20
421.8165354299999
 42
-0.41421356
 10
373.11811024
 20
418.8165354299999
 42
-0.41421356
 10
370.11811024
 20
421.8165354299999
  0
LWPOLYLINE
  5
2DC
330
20
100
AcDbEntity
  8
0
100
AcDbPolyline
 90
        5
 70
     1
 43
0.0
 10
384.54811024
 20
445.3865354299999
 42
-0.41421356
 10
386.54811024
 20
447.3865354299999
 42
-0.41421356
 10
388.54811024
 20
445.3865354299999
 42
-0.41421356
 10
386.54811024
 20
443.3865354299999
 42
-0.41421356
 10
384.54811024
 20
445.3865354299999
  0
LWPOLYLINE
  5
2E3
330
20
100
AcDbEntity
  8
0
100
AcDbPolyline
 90
        5
 70
     1
 43
0.0
 10
431.6881102399998
 20
445.3865354299999
 42
-0.41421356
 10
433.68811024
 20
447.3865354299999
 42
-0.41421356
 10
435.6881102399998
 20
445.3865354299999
 42
-0.41421356
 10
433.68811024
 20
443.3865354299999
 42
-0.41421356
 10
431.6881102399998
 20
445.3865354299999
  0
LWPOLYLINE
  5
2EA
330
20
100
AcDbEntity
  8
0
100
AcDbPolyline
 90
        5
 70
     1
 43
0.0
 10
431.6881102399998
 20
398.24653543
 42
-0.41421356
 10
433.68811024
 20
400.2465354299999
 42
-0.41421356
 10
435.6881102399998
 20
398.24653543
 42
-0.41421356
 10
433.68811024
 20
396.24653543
 42
-0.41421356
 10
431.6881102399998
 20
398.24653543
  0
LWPOLYLINE
  5
2F1
330
20
100
AcDbEntity
  8
0
100
AcDbPolyline
 90
        5
 70
     1
 43
0.0
 10
384.54811024
 20
398.24653543
 42
-0.41421356
 10
386.54811024
 20
400.2465354299999
 42
-0.41421356
 10
388.54811024
 20
398.24653543
 42
-0.41421356
 10
386.54811024
 20
396.24653543
 42
-0.41421356
 10
384.54811024
 20
398.24653543
  0
LWPOLYLINE
  5
2F8
330
20
100
AcDbEntity
  8
0
100
AcDbPolyline
 90
        5
 70
     1
 43
0.0
 10
0.0
 20
482.72755905
 10
90.0
 20
482.72755905
 10
90.0
 20
424.5275590499999
 10
0.0
 20
424.5275590499999
 10
0.0
 20
482.72755905
  0
LWPOLYLINE
  5
2FF
330
20
100
AcDbEntity
  8
0
100
AcDbPolyline
 90
        5
 70
     1
 43
0.0
 10
25.94999999999998
 20
453.6275590499999
 42
-0.41421356
 10
44.99999999999999
 20
472.6775590499999
 42
-0.41421356
 10
64.05000000000001
 20
453.6275590499999
 42
-0.41421356
 10
44.99999999999999
 20
434.5775590499999
 42
-0.41421356
 10
25.94999999999998
 20
453.6275590499999
  0
LWPOLYLINE
  5
306
330
20
100
AcDbEntity
  8
0
100
AcDbPolyline
 90
        5
 70
     1
 43
0.0
 10
79.0
 20
453.6275590499999
 42
-0.41421356
 10
82.0
 20
456.6275590499999
 42
-0.41421356
 10
85.0
 20
453.6275590499999
 42
-0.41421356
 10
82.0
 20
450.6275590499999
 42
-0.41421356
 10
79.0
 20
453.6275590499999
  0
LWPOLYLINE
  5
30D
330
20
100
AcDbEntity
  8
0
100
AcDbPolyline
 90
        5
 70
     1
 43
0.0
 10
5.0
 20
453.6275590499999
 42
-0.41421356
 10
8.0
 20
456.6275590499999
 42
-0.41421356
 10
11.0
 20
453.6275590499999
 42
-0.41421356
 10
8.0
 20
450.6275590499999
 42
-0.41421356
 10
5.0
 20
453.6275590499999
  0
LWPOLYLINE
  5
314
330
20
100
AcDbEntity
  8
0
100
AcDbPolyline
 90
        5
 70
     1
 43
0.0
 10
19.43
 20
477.19755905
 42
-0.41421356
 10
21.43
 20
479.1975590499999
 42
-0.41421356
 10
23.43
 20
477.19755905
 42
-0.41421356
 10
21.43
 20
475.1975590499999
 42
-0.41421356
 10
19.43
 20
477.19755905
  0
LWPOLYLINE
  5
31B
330
20
100
AcDbEntity
  8
0
100
AcDbPolyline
 90
        5
 70
     1
 43
0.0
 10
66.57
 20
477.19755905
 42
-0.41421356
 10
68.56999999999999
 20
479.1975590499999
 42
-0.41421356
 10
70.56999999999999
 20
477.19755905
 42
-0.41421356
 10
68.56999999999999
 20
475.1975590499999
 42
-0.41421356
 10
66.57
 20
477.19755905
  0
LWPOLYLINE
  5
322
330
20
100
AcDbEntity
  8
0
100
AcDbPolyline
 90
        5
 70
     1
 43
0.0
 10
66.57
 20
430.05755905
 42
-0.41421356
 10
68.56999999999999
 20
432.0575590499999
 42
-0.41421356
 10
70.56999999999999
 20
430.05755905
 42
-0.41421356
 10
68.56999999999999
 20
428.0575590499999
 42
-0.41421356
 10
66.57
 20
430.05755905
  0
LWPOLYLINE
  5
329
330
20
100
AcDbEntity
  8
0
100
AcDbPolyline
 90
        5
 70
     1
 43
0.0
 10
19.43
 20
430.05755905
 42
-0.41421356
 10
21.43
 20
432.0575590499999
 42
-0.41421356
 10
23.43
 20
430.05755905
 42
-0.41421356
 10
21.43
 20
428.0575590499999
 42
-0.41421356
 10
19.43
 20
430.05755905
  0
LWPOLYLINE
  5
330
330
20
100
AcDbEntity
  8
0
100
AcDbPolyline
 90
        5
 70
     1
 43
0.0
 10
93.01181102000001
 20
482.72755905
 10
183.01181102
 20
482.72755905
 10
183.01181102
 20
424.5275590499999
 10
93.01181102000001
 20
424.5275590499999
 10
93.01181102000001
 20
482.72755905
  0
LWPOLYLINE
  5
337
330
20
100
AcDbEntity
  8
0
100
AcDbPolyline
 90
        5
 70
     1
 43
0.0
 10
118.96181102
 20
453.6275590499999
 42
-0.41421356
 10
138.01181102
 20
472.6775590499999
 42
-0.41421356
 10
157.06181102
 20
453.6275590499999
 42
-0.41421356
 10
138.01181102
 20
434.5775590499999
 42
-0.41421356
 10
118.96181102
 20
453.6275590499999
  0
LWPOLYLINE
  5
33E
330
20
100
AcDbEntity
  8
0
100
AcDbPolyline
 90
        5
 70
     1
 43
0.0
 10
172.01181102
 20
453.6275590499999
 42
-0.41421356
 10
175.01181102
 20
456.6275590499999
 42
-0.41421356
 10
178.01181102
 20
453.6275590499999
 42
-0.41421356
 10
175.01181102
 20
450.6275590499999
 42
-0.41421356
 10
172.01181102
 20
453.6275590499999
  0
LWPOLYLINE
  5
345
330
20
100
AcDbEntity
  8
0
100
AcDbPolyline
 90
        5
 70
     1
 43
0.0
 10
98.01181102000001
 20
453.6275590499999
 42
-0.41421356
 10
101.01181102
 20
456.6275590499999
 42
-0.41421356
 10
104.01181102
 20
453.6275590499999
 42
-0.41421356
 10
101.01181102
 20
450.6275590499999
 42
-0.41421356
 10
98.01181102000001
 20
453.6275590499999
  0
LWPOLYLINE
  5
34C
330
20
100
AcDbEntity
  8
0
100
AcDbPolyline
 90
        5
 70
     1
 43
0.0
 10
112.44181102
 20
477.19755905
 42
-0.41421356
 10
114.44181102
 20
479.1975590499999
 42
-0.41421356
 10
116.44181102
 20
477.19755905
 42
-0.41421356
 10
114.44181102
 20
475.1975590499999
 42
-0.41421356
 10
112.44181102
 20
477.19755905
  0
LWPOLYLINE
  5
353
330
20
100
AcDbEntity
  8
0
100
AcDbPolyline
 90
        5
 70
     1
 43
0.0
 10
159.58181102
 20
477.19755905
 42
-0.41421356
 10
161.58181102
 20
479.1975590499999
 42
-0.41421356
 10
163.58181102
 20
477.19755905
 42
-0.41421356
 10
161.58181102
 20
475.1975590499999
 42
-0.41421356
 10
159.58181102
 20
477.19755905
  0
LWPOLYLINE
  5
35A
330
20
100
AcDbEntity
  8
0
100
AcDbPolyline
 90
        5
 70
     1
 43
0.0
 10
159.58181102
 20
430.05755905
 42
-0.41421356
 10
161.58181102
 20
432.0575590499999
 42
-0.41421356
 10
163.58181102
 20
430.05755905
 42
-0.41421356
 10
161.58181102
 20
428.0575590499999
 42
-0.41421356
 10
159.58181102
 20
430.05755905
  0
LWPOLYLINE
  5
361
330
20
100
AcDbEntity
  8
0
100
AcDbPolyline
 90
        5
 70
     1
 43
0.0
 10
112.44181102
 20
430.05755905
 42
-0.41421356
 10
114.44181102
 20
432.0575590499999
 42
-0.41421356
 10
116.44181102
 20
430.05755905
 42
-0.41421356
 10
114.44181102
 20
428.0575590499999
 42
-0.41421356
 10
112.44181102
 20
430.05755905
  0
LWPOLYLINE
  5
368
330
20
100
AcDbEntity
  8
0
100
AcDbPolyline
 90
        5
 70
     1
 43
0.0
 10
490.02362205
 20
203.01181102
 10
490.02362205
 20
270.01181102
 10
466.02362205
 20
270.01181102
 10
466.02362205
 20
203.01181102
 10
490.02362205
 20
203.01181102
  0
LWPOLYLINE
  5
36F
330
20
100
AcDbEntity
  8
0
100
AcDbPolyline
 90
        5
 70
     1
 43
0.0
 10
475.02362205
 20
210.01181102
 42
-0.41421356
 10
478.0236220499999
 20
213.01181102
 42
-0.41421356
 10
481.0236220499999
 20
210.01181102
 42
-0.41421356
 10
478.0236220499999
 20
207.01181102
 42
-0.41421356
 10
475.02362205
 20
210.01181102
  0
LWPOLYLINE
  5
376
330
20
100
AcDbEntity
  8
0
100
AcDbPolyline
 90
        5
 70
     1
 43
0.0
 10
475.02362205
 20
263.01181102
 42
-0.41421356
 10
478.0236220499999
 20
266.01181102
 42
-0.41421356
 10
481.0236220499999
 20
263.01181102
 42
-0.41421356
 10
478.0236220499999
 20
260.01181102
 42
-0.41421356
 10
475.02362205
 20
263.01181102
  0
LWPOLYLINE
  5
37D
330
20
100
AcDbEntity
  8
0
100
AcDbPolyline
 90
        5
 70
     1
 43
0.0
 10
490.02362205
 20
273.01181102
 10
466.02362205
 20
273.01181102
 10
466.02362205
 20
340.01181102
 10
490.02362205
 20
340.01181102
 10
490.02362205
 20
273.01181102
  0
LWPOLYLINE
  5
384
330
20
100
AcDbEntity
  8
0
100
AcDbPolyline
 90
        5
 70
     1
 43
0.0
 10
475.02362205
 20
280.01181102
 42
-0.41421356
 10
478.0236220499999
 20
283.01181102
 42
-0.41421356
 10
481.0236220499999
 20
280.01181102
 42
-0.41421356
 10
478.0236220499999
 20
277.01181102
 42
-0.41421356
 10
475.02362205
 20
280.01181102
  0
LWPOLYLINE
  5
38B
330
20
100
AcDbEntity
  8
0
100
AcDbPolyline
 90
        5
 70
     1
 43
0.0
 10
475.02362205
 20
333.01181102
 42
-0.41421356
 10
478.0236220499999
 20
336.01181102
 42
-0.41421356
 10
481.0236220499999
 20
333.01181102
 42
-0.41421356
 10
478.0236220499999
 20
330.01181102
 42
-0.41421356
 10
475.02362205
 20
333.01181102
  0
ENDSEC
  0
SECTION
  2
OBJECTS
  0
DICTIONARY
  5
C
330
0
100
AcDbDictionary
281
     1
  3
ACAD_COLOR
350
1B
  3
ACAD_GROUP
350
D
  3
ACAD_LAYOUT
350
19
  3
ACAD_MATERIAL
350
1A
  3
ACAD_MLINESTYLE
350
16
  3
ACAD_PLOTSETTINGS
350
18
  3
ACAD_PLOTSTYLENAME
350
E
  3
ACDBHEADERROUNDTRIPXREC
350
3BB
  3
AcDbVariableDictionary
350
3A3
  0
DICTIONARY
  5
1B
102
{ACAD_REACTORS
330
C
102
}
330
C
100
AcDbDictionary
281
     1
  0
DICTIONARY
  5
D
102
{ACAD_REACTORS
330
C
102
}
330
C
100
AcDbDictionary
281
     1
  0
DICTIONARY
  5
19
102
{ACAD_REACTORS
330
C
102
}
330
C
100
AcDbDictionary
281
     1
  3
Layout1
350
1F
  3
Model
350
23
  0
DICTIONARY
  5
1A
102
{ACAD_REACTORS
330
C
102
}
330
C
100
AcDbDictionary
281
     1
  0
DICTIONARY
  5
16
102
{ACAD_REACTORS
330
C
102
}
330
C
100
AcDbDictionary
281
     1
  3
Standard
350
17
  0
DICTIONARY
  5
18
102
{ACAD_REACTORS
330
C
102
}
330
C
100
AcDbDictionary
281
     1
  0
ACDBDICTIONARYWDFLT
  5
E
102
{ACAD_REACTORS
330
C
102
}
330
C
100
AcDbDictionary
281
     1
  3
Normal
350
F
100
AcDbDictionaryWithDefault
340
F
  0
DICTIONARY
  5
3BB
102
{ACAD_REACTORS
330
C
102
}
330
C
100
AcDbDictionary
281
     1
  3
COLORDICT
350
3BD
  3
MATERIALDICT
350
3BC
  0
DICTIONARY
  5
3A3
102
{ACAD_REACTORS
330
C
102
}
330
C
100
AcDbDictionary
281
     1
  3
DIMASSOC
350
3A4
  3
PROJECTNAME
350
3A5
  0
LAYOUT
  5
1F
102
{ACAD_XDICTIONARY
360
3BE
102
}
102
{ACAD_REACTORS
330
19
102
}
330
19
100
AcDbPlotSettings
  1

  2
Canon Bubble-Jet BJC-4300 (Copy 1)
  4

  6

 40
0.0
 41
0.0
 42
0.0
 43
0.0
 44
0.0
 45
0.0
 46
0.0
 47
0.0
 48
0.0
 49
0.0
140
0.0
141
0.0
142
1.0
143
1.0
 70
   688
 72
     0
 73
     0
 74
     5
  7

 75
    16
147
1.0
148
0.0
149
0.0
100
AcDbLayout
  1
Layout1
 70
     1
 71
     1
 10
0.0
 20
0.0
 11
12.0
 21
9.0
 12
0.0
 22
0.0
 32
0.0
 14
1.000000000000000E+20
 24
1.000000000000000E+20
 34
1.000000000000000E+20
 15
-1.000000000000000E+20
 25
-1.000000000000000E+20
 35
-1.000000000000000E+20
146
0.0
 13
0.0
 23
0.0
 33
0.0
 16
1.0
 26
0.0
 36
0.0
 17
0.0
 27
1.0
 37
0.0
 76
     0
330
1C
  0
LAYOUT
  5
23
102
{ACAD_XDICTIONARY
360
3C0
102
}
102
{ACAD_REACTORS
330
19
102
}
330
19
100
AcDbPlotSettings
  1

  2
Canon Bubble-Jet BJC-4300 (Copy 1)
  4

  6

 40
0.0
 41
0.0
 42
0.0
 43
0.0
 44
0.0
 45
0.0
 46
0.0
 47
0.0
 48
0.0
 49
0.0
140
0.0
141
0.0
142
1.0
143
1.0
 70
  1712
 72
     0
 73
     0
 74
     0
  7

 75
     0
147
1.0
148
0.0
149
0.0
100
AcDbLayout
  1
Model
 70
     1
 71
     0
 10
0.0
 20
0.0
 11
12.0
 21
9.0
 12
0.0
 22
0.0
 32
0.0
 14
0.0
 24
0.0
 34
0.0
 15
0.0
 25
0.0
 35
0.0
146
0.0
 13
0.0
 23
0.0
 33
0.0
 16
1.0
 26
0.0
 36
0.0
 17
0.0
 27
1.0
 37
0.0
 76
     0
330
20
  0
MLINESTYLE
  5
17
102
{ACAD_REACTORS
330
16
102
}
330
16
100
AcDbMlineStyle
  2
STANDARD
 70
     0
  3

 62
   256
 51
90.0
 52
90.0
 71
     2
 49
0.5
 62
   256
  6
BYLAYER
 49
-0.5
 62
   256
  6
BYLAYER
  0
ACDBPLACEHOLDER
  5
F
102
{ACAD_REACTORS
330
E
102
}
330
E
  0
XRECORD
  5
3BD
102
{ACAD_REACTORS
330
3BB
102
}
330
3BB
100
AcDbXrecord
280
     1
340
1B
  0
XRECORD
  5
3BC
102
{ACAD_REACTORS
330
3BB
102
}
330
3BB
100
AcDbXrecord
280
     1
340
1A
  0
DICTIONARYVAR
  5
3A4
102
{ACAD_REACTORS
330
3A3
102
}
330
3A3
100
DictionaryVariables
280
     0
  1
1
  0
DICTIONARYVAR
  5
3A5
102
{ACAD_REACTORS
330
3A3
102
}
330
3A3
100
DictionaryVariables
280
     0
  1

  0
DICTIONARY
  5
3BE
330
1F
100
AcDbDictionary
280
     1
281
     1
  3
ACAD_XREC_ROUNDTRIP
360
3BF
  0
DICTIONARY
  5
3C0
330
23
100
AcDbDictionary
280
     1
281
     1
  3
ACAD_XREC_ROUNDTRIP
360
3C1
  0
XRECORD
  5
3BF
102
{ACAD_REACTORS
330
3BE
102
}
330
3BE
100
AcDbXrecord
280
     1
102
SHADEPLOT
 70
     0
102
SHADEPLOTRESLEVEL
 70
     2
102
SHADEPLOTCUSTOMDPI
 70
   300
  0
XRECORD
  5
3C1
102
{ACAD_REACTORS
330
3C0
102
}
330
3C0
100
AcDbXrecord
280
     1
102
SHADEPLOT
 70
     0
102
SHADEPLOTRESLEVEL
 70
     2
102
SHADEPLOTCUSTOMDPI
 70
   300
  0
ENDSEC
  0
EOF
